ä Area: SU.MUSIC.LYRICS: ōÅĖÓŌŁ ŠÅÓÅĪ ääääääääääääääääääääääääääääääääääääääää
  Msg#: 156                                          Date: 27 Dec 94  19:21:39
  From: vit slipchenko                               Read: Yes    Replied: No 
    To: All                                          Mark:                     
  Subj: ĘĮĪĮŌĮĶ ...
ääääääääääääääääääääääääääääääääääääääääääääääääääääääääääääääääääääääääääääää
Hello All!


In The Flesh                         Pink Floyd
                                                    G5     D5   E5
|-------------------|-----------------------------|--------------0___--|
|-------------------|-----------------------------|-8----\--3----0___--|
|-------------------|-----------------------------|-7----\--2----------|
|-------------------|-----------------------------|--------------------|
|-------------------|---------0-------2---3vvvvv--|--------------------|
|--0--------2vvvvv--|-3vvvvv----------------------|--------------------|


|---------0------------0-----------------------------------------------|
|-------0----3-------0----3--------------------------------------------|

|-2>(4)--------2>(4)--------2>(4)--2-0---------------------------------|

|--------------------------------------2-0---------------2vvvvvvv------|
|------------------------------------------2-1-0-----------------------|
|------------------------------------------------3>(4)p0---------------|

  D        E/D       F/D      E/D      D       E/D       F/D     G/D
|-2vvvvv---4vvvvv-|--5vvvvv---4vvvvv-|-2vvvvv--4vvvvv-|--5vvvvv--7vvvvv-|
|-3vvvvv---5vvvvv-|--6vvvvv---5vvvvv-|-3vvvvv--5vvvvv-|--6vvvvv--8vvvvv-|
|-2vvvvv---4vvvvv-|--5vvvvv---4vvvvv-|-2vvvvv--4vvvvv-|--5vvvvv--7vvvvv-|
|-0vvvvv---0vvvvv-|--0vvvvv---0vvvvv-|-0vvvvv--0vvvvv-|--0vvvvv--0vvvvv-|
|-----------------|------------------|----------------|-----------------|
|-----------------|------------------|----------------|-----------------|

% Guitar 1 Distortion
   A    A/C# Bm      A       D/F#    D   A/C#    E/B
|-------------------------|-----------------------------|
|-------------------------|-----------------------------|
|-(2)---------------------|----x------------------------|
|-(2)---------------------|----x-x----------------------|
|--0---2>(4)--2vvvv--0----|----x-x--4>(5)-4vvvvv-2vvvvv-|
|-----------------------2>|(4)---x----------------------|
  Guitar 2 Distortion
|-------------------------|-----------------------------|
|------5------------------|--------7--------------------|
|--6---7>(9)--7vvvv--6----|--------9>(11)-9vvvvv-7vvvvv-|
|-----------------------7>|(9)-x-x----------------------|
|-------------------------|-----------------------------|
|-------------------------|-----------------------------|

 Guitar 1
   A   A/C#  Bm      A      D/F#    D     A/C#   E/B
|-------------------------|-----------------------------|
|-------------------------|-----------------------------|
|-------------------------|-----------------------------|
|--2----------------------|-----------------------------|
|--0---2>(4)-2vvvvv--0----|----x-x--4>(5)-4vvvvv-2vvvvv-|
|-----------------------2>|(4)-x-x----------------------|
   Guitar 2 Distortion
|-------------------------|-----------------------------|
|------5------------------|--------7--------------------|
|--6---7>(9)--7vvvv--6----|--------9>(11)-9vvvvv-7vvvvv-|
|-----------------------7>|(9)-x-x----------------------|
|-------------------------|-----------------------------|
|-------------------------|-----------------------------|

  Guitar 1
   A   A/C#  Bm      A      Bm       D     A/C#  E/B
|-------------------------|-----------------------------|
|-------------------------|-----------------------------|
|--2----------------------|----x------------------------|
|--2----------------------|----x------------------------|
|--0---2>(4)-2vvvvv--0--1-|-2v---x--4>(5)--4vvvv-2----3-|
|-------------------------|-----------------------------|
   Guitar 2 Distortion
|-------------------------|-----------------------------|
|------5------------------|-----x-x-7-------------------|
|--6---7>(9)--7vvvv--6v-6-|-7vv-x-x-9>(11)-9vvv--7vv--8-|
|-------------------------|-----------------------------|
|-------------------------|-----------------------------|
|-------------------------|-----------------------------|

 Guitar 1
   C#m             D    A/C#
|------------------------------|
|------------------------------|
|--------x---------------------|
|--------x---------------------|
|--4vvvv---5>(7)---5----4------|
|-------------------------12\--|
 Guitar 2                       % E  (synth arranged for guitar)
|------------------------------||-0----------------------------|
|-----------9------------------||-0----------------------------|
|--9vvvv---11>(13)-11vv-9vvvv\-||-1----------------------------|
|------------------------------||-2-------------0---2----------|
|------------------------------||-2----------4--------2--------|
|------------------------------||-0------/4--------------0-----|

 A                                  D
|----5-------------------------|----5-------------------------|
|----5-------------------------|----7-------------------------|
|-2--6-------------------------|----7-------------------------|
|-2--7-------------------------|----7-------------------------|
|-0----------------------------|------------------------------|
|------------------------------|------------------------------|
   So ya thought ya might like to go to the show

     A                                       D
|----5----------------------------------|----5-------------------------
|----5----------------------------------|----7-------------------------
|----6----------------------------------|----7-------------------------
|----7----------------------------------|----7-------------------------
|---------------------------------------|------------------------------
|---------------------------------------|------------------------------
 to feel the warm thrill o confusion That space cadet glow
     A                              Bm
|----5-------------------------|----7-------------------------
|----5-------------------------|----7-------------------------
|----6-------------------------|----7-------------------------
|----7-------------------------|----9-------------------------
|------------------------------|------------------------------
|------------------------------|------------------------------
  Tell me is something eluding     Is this not what you expected to see
                   you sunshine
      C#m                         E
   |--9-------------------------|-12--------------------|
   |--9-------------------------|-12--------------------|
   |--9-------------------------|-12--------------------|
   |--11------------------------|-14--------------------|
   |----------------------------|-----------------------|
   |----------------------------|-----------------------|

If you want to find out whats   / just have to claw your way
   behind these cold eyes you'll   through this disguise   [return to % ]

 Coda
|------------------|--/--|-----|
|------------------|--/--|-----|
|------------------|--2--|--2--|
|--2---2-2-2-2-2-2-|--2--|--2--|
|--2---2-2-2-2-2-2-|--0--|--0--|
|--0---0-0-0-0-0-0-|-----|-----|


-!- Legend of Musical Symbols ---

>     Bend up to the note in parenthesis. Ex: 2>(4) bend up a whole step.

p Pull off.
\ Slide up/down.
/ (Above the notes) Tremolo picking (pick as fast as you can).
x Unpiched percussive notes.



Regards ................ Vit

 Ž InterNet: vvs@gu.kiev.ua   Ž
 Ž Team 0S/2                  Ž

šĻŠÕĢŃŅĪĻÓŌŲ: 16, Last-modified: Tue, 16 Apr 1996 09:15:01 GMT